0
SECTION
2
HEADER
9
$INSUNITS
70
4
9
$ACADVER
1
AC1014
9
$HANDSEED
5
FFFF
0
ENDSEC
0
SECTION
2
TABLES
0
TABLE
2
VPORT
5
8
100
AcDbSymbolTable
0
ENDTAB
0
TABLE
2
LTYPE
5
5
100
AcDbSymbolTable
0
LTYPE
5
14
100
AcDbSymbolTableRecord
100
AcDbLinetypeTableRecord
2
BYBLOCK
70
0
0
LTYPE
5
15
100
AcDbSymbolTableRecord
100
AcDbLinetypeTableRecord
2
BYLAYER
70
0
0
ENDTAB
0
TABLE
2
LAYER
5
2
100
AcDbSymbolTable
70
2
0
LAYER
5
50
100
AcDbSymbolTableRecord
100
AcDbLayerTableRecord
2
0
70
0
6
CONTINUOUS
0
ENDTAB
0
TABLE
2
STYLE
5
3
100
AcDbSymbolTable
70
1
0
STYLE
5
11
100
AcDbSymbolTableRecord
100
AcDbTextStyleTableRecord
2
STANDARD
70
0
0
ENDTAB
0
TABLE
2
VIEW
5
6
100
AcDbSymbolTable
70
0
0
ENDTAB
0
TABLE
2
UCS
5
7
100
AcDbSymbolTable
70
0
0
ENDTAB
0
TABLE
2
APPID
5
9
100
AcDbSymbolTable
70
2
0
APPID
5
12
100
AcDbSymbolTableRecord
100
AcDbRegAppTableRecord
2
ACAD
70
0
0
ENDTAB
0
TABLE
2
DIMSTYLE
5
A
100
AcDbSymbolTable
70
1
0
ENDTAB
0
TABLE
2
BLOCK_RECORD
5
1
100
AcDbSymbolTable
70
1
0
BLOCK_RECORD
5
1F
100
AcDbSymbolTableRecord
100
AcDbBlockTableRecord
2
*MODEL_SPACE
0
BLOCK_RECORD
5
1B
100
AcDbSymbolTableRecord
100
AcDbBlockTableRecord
2
*PAPER_SPACE
0
ENDTAB
0
ENDSEC
0
SECTION
2
BLOCKS
0
BLOCK
5
20
100
AcDbEntity
100
AcDbBlockBegin
2
*MODEL_SPACE
0
ENDBLK
5
21
100
AcDbEntity
100
AcDbBlockEnd
0
BLOCK
5
1C
100
AcDbEntity
100
AcDbBlockBegin
2
*PAPER_SPACE
0
ENDBLK
5
1D
100
AcDbEntity
100
AcDbBlockEnd
0
ENDSEC
0
SECTION
2
ENTITIES
0
LWPOLYLINE
5
100
100
AcDbEntity
8
0
100
AcDbPolyline
90
12
70
1
43
0.0
10
108.03750000000001
20
28.575000000000003
42
-0.41421356237308982
10
109.53750000000001
20
27.074999999999992
10
109.53750000000001
20
-8.0249999999999986
42
-0.41421356237308915
10
108.03750000000001
20
-9.5250000000000021
10
101.51250000000003
20
-9.5250000000000004
42
0.41421356237309503
10
100.01250000000002
20
-11.025
10
100.01250000000005
20
-27.075000000000003
42
-0.41421356237309764
10
98.512500000000017
20
-28.575000000000003
10
-108.03749999999999
20
-28.57500000000001
42
-0.41421356237308554
10
-109.53749999999998
20
-27.074999999999999
10
-109.53749999999998
20
27.074999999999992
42
-0.41421356237308116
10
-108.03750000000001
20
28.574999999999996
0
CIRCLE
5
101
100
AcDbEntity
8
0
100
AcDbCircle
10
-80.962500000000006
20
26.195000000000004
30
0
40
1.05
210
0
220
-0
230
1
0
CIRCLE
5
102
100
AcDbEntity
8
0
100
AcDbCircle
10
80.962500000000006
20
-26.195000000000004
30
0
40
1.05
210
0
220
-0
230
1
0
CIRCLE
5
103
100
AcDbEntity
8
0
100
AcDbCircle
10
80.962500000000006
20
26.195000000000004
30
0
40
1.05
210
0
220
-0
230
1
0
CIRCLE
5
104
100
AcDbEntity
8
0
100
AcDbCircle
10
-71.4375
20
-26.195000000000004
30
0
40
1.05
210
0
220
-0
230
1
0
LWPOLYLINE
5
105
100
AcDbEntity
8
0
100
AcDbPolyline
90
8
70
1
43
0.0
10
-92.631250000000009
20
24.83799999999999
42
-0.41421356237309503
10
-91.631250000000009
20
23.837999999999994
10
-91.631250000000009
20
19.087999999999997
42
-0.4142135623730937
10
-92.631250000000009
20
18.087999999999997
10
-104.63124999999998
20
18.088000000000001
42
-0.41421356237310025
10
-105.63124999999999
20
19.087999999999997
10
-105.63124999999999
20
23.837999999999994
42
-0.4142135623730937
10
-104.63124999999999
20
24.837999999999994
0
LWPOLYLINE
5
106
100
AcDbEntity
8
0
100
AcDbPolyline
90
8
70
1
43
0.0
10
30.812500000000011
20
-6.0000000000000053
42
-0.4142135623730947
10
29.812500000000011
20
-7.0000000000000053
10
17.812500000000018
20
-7.0000000000000062
42
-0.41421356237309503
10
16.812500000000018
20
-6.0000000000000053
10
16.812500000000018
20
6.0000000000000009
42
-0.41421356237309437
10
17.812500000000018
20
7.0000000000000009
10
29.812500000000011
20
7.0000000000000036
42
-0.41421356237309309
10
30.812500000000011
20
6.0000000000000009
0
LWPOLYLINE
5
107
100
AcDbEntity
8
0
100
AcDbPolyline
90
8
70
1
43
0.0
10
102.25000000000001
20
13.050000000000001
42
-0.4142135623730937
10
101.25000000000001
20
12.050000000000001
10
89.25
20
12.049999999999997
42
-0.41421356237309764
10
88.250000000000014
20
13.050000000000001
10
88.250000000000014
20
25.050000000000004
42
-0.41421356237309631
10
89.25
20
26.050000000000004
10
101.25000000000001
20
26.050000000000001
42
-0.41421356237309503
10
102.25000000000001
20
25.050000000000004
0
LWPOLYLINE
5
108
100
AcDbEntity
8
0
100
AcDbPolyline
90
8
70
1
43
0.0
10
21.287500000000001
20
-25.050000000000004
42
-0.41421356237309115
10
20.287500000000005
20
-26.050000000000004
10
8.2875000000000121
20
-26.050000000000004
42
-0.41421356237309404
10
7.2875000000000121
20
-25.050000000000004
10
7.2875000000000112
20
-13.050000000000001
42
-0.41421356237309503
10
8.2875000000000121
20
-12.050000000000001
10
20.287500000000005
20
-12.050000000000001
42
-0.41421356237309243
10
21.287500000000005
20
-13.050000000000001
0
LWPOLYLINE
5
109
100
AcDbEntity
8
0
100
AcDbPolyline
90
8
70
1
43
0.0
10
-35.86249999999999
20
13.050000000000001
42
-0.41421356237309243
10
-36.862499999999997
20
12.050000000000001
10
-48.862500000000004
20
12.050000000000001
42
-0.4142135623730937
10
-49.862499999999997
20
13.050000000000001
10
-49.862499999999997
20
25.050000000000004
42
-0.41421356237309243
10
-48.862500000000004
20
26.050000000000004
10
-36.862499999999997
20
26.050000000000008
42
-0.41421356237309115
10
-35.86249999999999
20
25.050000000000004
0
LWPOLYLINE
5
110
100
AcDbEntity
8
0
100
AcDbPolyline
90
8
70
1
43
0.0
10
68.912500000000009
20
-6.0000000000000053
42
-0.41421356237309537
10
67.912500000000009
20
-7.0000000000000053
10
55.912500000000009
20
-7.0000000000000036
42
-0.4142135623730957
10
54.912500000000009
20
-6.0000000000000053
10
54.912500000000009
20
6.0000000000000009
42
-0.41421356237309537
10
55.912500000000009
20
7.0000000000000009
10
67.912500000000009
20
7
42
-0.4142135623730957
10
68.912500000000009
20
6.0000000000000009
0
LWPOLYLINE
5
111
100
AcDbEntity
8
0
100
AcDbPolyline
90
8
70
1
43
0.0
10
-39.337499999999999
20
-7.0000000000000036
42
-0.4142135623730957
10
-40.337499999999991
20
-6.0000000000000053
10
-40.337499999999991
20
6.0000000000000009
42
-0.41421356237309404
10
-39.337499999999999
20
7.0000000000000009
10
-27.337499999999988
20
7.0000000000000036
42
-0.41421356237309309
10
-26.337499999999988
20
6.0000000000000009
10
-26.337499999999988
20
-6.0000000000000053
42
-0.4142135623730947
10
-27.337499999999988
20
-7.0000000000000053
0
LWPOLYLINE
5
112
100
AcDbEntity
8
0
100
AcDbPolyline
90
8
70
1
43
0.0
10
84.487500000000011
20
-26.050000000000008
42
-0.41421356237309764
10
83.487500000000011
20
-25.050000000000004
10
83.487500000000011
20
-13.050000000000001
42
-0.41421356237309631
10
84.487500000000011
20
-12.050000000000001
10
96.487500000000011
20
-12.050000000000004
42
-0.41421356237309503
10
97.487500000000011
20
-13.050000000000001
10
97.487500000000011
20
-25.050000000000004
42
-0.4142135623730937
10
96.487500000000011
20
-26.050000000000004
0
LWPOLYLINE
5
113
100
AcDbEntity
8
0
100
AcDbPolyline
90
8
70
1
43
0.0
10
-45.38750000000001
20
-6.0000000000000053
10
-45.38750000000001
20
6.0000000000000009
42
0.41421356237309309
10
-46.387499999999989
20
6.9999999999999973
10
-58.387499999999989
20
7.0000000000000009
42
0.41421356237309537
10
-59.387499999999996
20
6.0000000000000009
10
-59.387499999999989
20
-6.0000000000000053
42
0.41421356237309825
10
-58.387499999999982
20
-7.0000000000000053
10
-46.387500000000003
20
-7.0000000000000053
42
0.41421356237309537
0
LWPOLYLINE
5
114
100
AcDbEntity
8
0
100
AcDbPolyline
90
8
70
1
43
0.0
10
78.4375
20
-25.050000000000004
42
-0.41421356237309243
10
77.4375
20
-26.050000000000004
10
65.437500000000014
20
-26.050000000000004
42
-0.41421356237309631
10
64.437500000000014
20
-25.050000000000004
10
64.437500000000014
20
-13.050000000000001
42
-0.41421356237309503
10
65.437500000000014
20
-12.050000000000001
10
77.4375
20
-12.050000000000001
42
-0.41421356237309631
10
78.4375
20
-13.050000000000001
0
LWPOLYLINE
5
115
100
AcDbEntity
8
0
100
AcDbPolyline
90
8
70
1
43
0.0
10
-35.862499999999997
20
-25.050000000000004
42
-0.41421356237309115
10
-36.862499999999997
20
-26.050000000000004
10
-48.862500000000004
20
-26.050000000000004
42
-0.4142135623730937
10
-49.862499999999997
20
-25.050000000000004
10
-49.862499999999997
20
-13.050000000000001
42
-0.41421356237309503
10
-48.862500000000004
20
-12.050000000000001
10
-36.862499999999997
20
-12.050000000000001
42
-0.41421356237309243
10
-35.86249999999999
20
-13.050000000000001
0
LWPOLYLINE
5
116
100
AcDbEntity
8
0
100
AcDbPolyline
90
8
70
1
43
0.0
10
11.762499999999999
20
-6.0000000000000053
42
-0.41421356237309437
10
10.762499999999999
20
-7.0000000000000053
10
-1.2374999999999934
20
-7.0000000000000053
42
-0.41421356237309453
10
-2.2374999999999936
20
-6.0000000000000053
10
-2.237499999999994
20
6.0000000000000009
42
-0.41421356237309453
10
-1.2374999999999936
20
7.0000000000000009
10
10.762499999999999
20
7.0000000000000018
42
-0.41421356237309503
10
11.762499999999999
20
6.0000000000000009
0
LWPOLYLINE
5
117
100
AcDbEntity
8
0
100
AcDbPolyline
90
8
70
1
43
0.0
10
59.387500000000003
20
-25.050000000000004
42
-0.41421356237309243
10
58.38750000000001
20
-26.050000000000004
10
46.387500000000017
20
-26.050000000000004
42
-0.41421356237309631
10
45.38750000000001
20
-25.050000000000004
10
45.387500000000003
20
-13.050000000000001
42
-0.4142135623730937
10
46.38750000000001
20
-12.050000000000001
10
58.38750000000001
20
-12.050000000000001
42
-0.41421356237309631
10
59.387500000000003
20
-13.050000000000001
0
LWPOLYLINE
5
118
100
AcDbEntity
8
0
100
AcDbPolyline
90
8
70
1
43
0.0
10
-16.812499999999979
20
-25.050000000000004
10
-16.812499999999979
20
-13.050000000000001
42
0.4142135623730937
10
-17.812499999999982
20
-12.050000000000001
10
-29.812499999999993
20
-12.050000000000001
42
0.41421356237309243
10
-30.8125
20
-13.050000000000001
10
-30.812499999999993
20
-25.050000000000004
42
0.41421356237309115
10
-29.812499999999993
20
-26.050000000000004
10
-17.812499999999982
20
-26.050000000000004
42
0.41421356237309176
0
LWPOLYLINE
5
119
100
AcDbEntity
8
0
100
AcDbPolyline
90
8
70
1
43
0.0
10
-92.631250000000009
20
0.96199999999998931
42
-0.41421356237309431
10
-91.631250000000009
20
-0.038000000000004697
10
-91.631250000000009
20
-4.7880000000000056
42
-0.41421356237309404
10
-92.631250000000009
20
-5.7880000000000056
10
-104.63124999999998
20
-5.7880000000000003
42
-0.41421356237309959
10
-105.63124999999999
20
-4.7880000000000056
10
-105.63124999999999
20
-0.038000000000004912
42
-0.41421356237309415
10
-104.63124999999999
20
0.9619999999999953
0
LWPOLYLINE
5
120
100
AcDbEntity
8
0
100
AcDbPolyline
90
8
70
1
43
0.0
10
59.387500000000003
20
13.050000000000001
42
-0.41421356237309503
10
58.38750000000001
20
12.050000000000001
10
46.387500000000017
20
12.050000000000001
42
-0.41421356237309631
10
45.38750000000001
20
13.050000000000001
10
45.387500000000003
20
25.050000000000004
42
-0.41421356237309503
10
46.38750000000001
20
26.050000000000004
10
58.38750000000001
20
26.050000000000004
42
-0.41421356237309631
10
59.387500000000003
20
25.050000000000004
0
LWPOLYLINE
5
121
100
AcDbEntity
8
0
100
AcDbPolyline
90
8
70
1
43
0.0
10
-104.63124999999998
20
15.524999999999999
42
-0.4142135623730937
10
-103.63124999999998
20
16.524999999999999
10
-91.631249999999966
20
16.524999999999995
42
-0.41421356237308982
10
-90.631249999999994
20
15.524999999999999
10
-90.631249999999994
20
3.5250000000000004
42
-0.41421356237309426
10
-91.631249999999994
20
2.5250000000000004
10
-103.63124999999997
20
2.5250000000000061
42
-0.41421356237309959
10
-104.63124999999998
20
3.5250000000000004
0
LWPOLYLINE
5
122
100
AcDbEntity
8
0
100
AcDbPolyline
90
8
70
1
43
0.0
10
8.2875000000000121
20
12.050000000000001
42
-0.41421356237309437
10
7.2875000000000121
20
13.050000000000001
10
7.2875000000000112
20
25.050000000000004
42
-0.41421356237309243
10
8.2875000000000121
20
26.050000000000004
10
20.287500000000005
20
26.050000000000008
42
-0.41421356237309115
10
21.287500000000005
20
25.050000000000004
10
21.287500000000005
20
13.050000000000001
42
-0.41421356237309243
10
20.287500000000005
20
12.050000000000001
0
LWPOLYLINE
5
123
100
AcDbEntity
8
0
100
AcDbPolyline
90
8
70
1
43
0.0
10
40.337500000000013
20
13.050000000000001
42
-0.4142135623730937
10
39.337500000000006
20
12.050000000000001
10
27.337500000000006
20
12.050000000000001
42
-0.41421356237309243
10
26.337500000000006
20
13.050000000000001
10
26.337500000000009
20
25.050000000000004
42
-0.41421356237309115
10
27.337500000000006
20
26.050000000000004
10
39.337500000000006
20
26.050000000000001
42
-0.41421356237309764
10
40.337500000000006
20
25.050000000000004
0
LWPOLYLINE
5
124
100
AcDbEntity
8
0
100
AcDbPolyline
90
8
70
1
43
0.0
10
78.4375
20
13.050000000000001
10
78.4375
20
25.050000000000004
42
0.41421356237309631
10
77.4375
20
26.050000000000004
10
65.437500000000014
20
26.050000000000004
42
0.41421356237309243
10
64.437500000000014
20
25.050000000000004
10
64.437500000000014
20
13.050000000000001
42
0.41421356237309631
10
65.437500000000014
20
12.050000000000001
10
77.4375
20
12.050000000000001
42
0.41421356237309503
0
LWPOLYLINE
5
125
100
AcDbEntity
8
0
100
AcDbPolyline
90
8
70
1
43
0.0
10
2.2375000000000123
20
13.050000000000001
10
2.2375000000000123
20
25.050000000000004
42
0.41421356237309243
10
1.2375000000000114
20
26.050000000000004
10
-10.762499999999999
20
26.050000000000004
42
0.41421356237309176
10
-11.762500000000005
20
25.050000000000004
10
-11.762499999999999
20
13.050000000000001
42
0.4142135623730937
10
-10.762499999999999
20
12.050000000000001
10
1.2375000000000114
20
12.050000000000001
42
0.4142135623730942
0
LWPOLYLINE
5
126
100
AcDbEntity
8
0
100
AcDbPolyline
90
8
70
1
43
0.0
10
-16.812499999999982
20
13.050000000000001
42
-0.4142135623730937
10
-17.812499999999982
20
12.050000000000001
10
-29.812499999999993
20
12.050000000000001
42
-0.41421356237309243
10
-30.812499999999993
20
13.050000000000001
10
-30.812499999999989
20
25.050000000000004
42
-0.41421356237309115
10
-29.812499999999993
20
26.050000000000004
10
-17.812499999999982
20
26.050000000000004
42
-0.41421356237309176
10
-16.812499999999982
20
25.050000000000004
0
LWPOLYLINE
5
127
100
AcDbEntity
8
0
100
AcDbPolyline
90
8
70
1
43
0.0
10
107.0125
20
-6.0000000000000053
42
-0.41421356237309664
10
106.0125
20
-7.0000000000000053
10
94.012500000000017
20
-7.0000000000000089
42
-0.41421356237309698
10
93.012500000000017
20
-6.0000000000000053
10
93.012500000000017
20
6.0000000000000009
42
-0.41421356237309664
10
94.012500000000017
20
7.0000000000000009
10
106.0125
20
7.0000000000000036
42
-0.41421356237309698
10
107.0125
20
6.0000000000000009
0
LWPOLYLINE
5
128
100
AcDbEntity
8
0
100
AcDbPolyline
90
8
70
1
43
0.0
10
-7.2874999999999943
20
-6.0000000000000053
42
-0.41421356237309437
10
-8.2874999999999943
20
-7.0000000000000053
10
-20.287499999999987
20
-7.0000000000000089
42
-0.41421356237309309
10
-21.287499999999987
20
-6.0000000000000053
10
-21.287499999999987
20
6.0000000000000009
42
-0.4142135623730947
10
-20.287499999999987
20
7.0000000000000009
10
-8.2874999999999943
20
7.0000000000000009
42
-0.41421356237309437
10
-7.2874999999999943
20
6.0000000000000009
0
LWPOLYLINE
5
129
100
AcDbEntity
8
0
100
AcDbPolyline
90
8
70
1
43
0.0
10
2.2375000000000123
20
-25.050000000000004
42
-0.41421356237309243
10
1.2375000000000114
20
-26.050000000000004
10
-10.762499999999999
20
-26.050000000000004
42
-0.41421356237309176
10
-11.762499999999999
20
-25.050000000000004
10
-11.762499999999999
20
-13.050000000000001
42
-0.4142135623730937
10
-10.762499999999999
20
-12.050000000000001
10
1.2375000000000111
20
-12.050000000000001
42
-0.41421356237309342
10
2.2375000000000114
20
-13.050000000000001
0
LWPOLYLINE
5
130
100
AcDbEntity
8
0
100
AcDbPolyline
90
8
70
1
43
0.0
10
87.962500000000006
20
-6.0000000000000053
10
87.962500000000006
20
6.0000000000000009
42
0.41421356237309437
10
86.962500000000006
20
7.0000000000000018
10
74.962500000000006
20
7.0000000000000009
42
0.41421356237309537
10
73.962500000000006
20
6.0000000000000009
10
73.962500000000006
20
-6.0000000000000053
42
0.4142135623730957
10
74.962500000000006
20
-7.0000000000000053
10
86.962500000000006
20
-7.0000000000000053
42
0.41421356237309404
0
LWPOLYLINE
5
131
100
AcDbEntity
8
0
100
AcDbPolyline
90
8
70
1
43
0.0
10
-64.437499999999972
20
-6.0000000000000053
42
-0.41421356237309537
10
-65.437499999999972
20
-7.0000000000000053
10
-77.4375
20
-7.0000000000000036
42
-0.41421356237309825
10
-78.4375
20
-6.0000000000000053
10
-78.4375
20
6.0000000000000009
42
-0.41421356237309537
10
-77.4375
20
7.0000000000000009
10
-65.437499999999972
20
7
42
-0.41421356237309309
10
-64.437499999999972
20
6.0000000000000009
0
LWPOLYLINE
5
132
100
AcDbEntity
8
0
100
AcDbPolyline
90
8
70
1
43
0.0
10
-54.912499999999973
20
-25.050000000000004
42
-0.41421356237309243
10
-55.912499999999966
20
-26.050000000000004
10
-67.91249999999998
20
-26.050000000000004
42
-0.41421356237309892
10
-68.912499999999994
20
-25.050000000000004
10
-68.912499999999994
20
-13.050000000000001
42
-0.41421356237309503
10
-67.912499999999994
20
-12.050000000000001
10
-55.912499999999966
20
-12.050000000000001
42
-0.4142135623730937
10
-54.912499999999973
20
-13.050000000000001
0
LWPOLYLINE
5
133
100
AcDbEntity
8
0
100
AcDbPolyline
90
8
70
1
43
0.0
10
-62.056250000000013
20
13.050000000000001
42
-0.41421356237309503
10
-63.056250000000006
20
12.050000000000001
10
-75.056249999999977
20
12.050000000000001
42
-0.41421356237309892
10
-76.056250000000006
20
13.050000000000001
10
-76.056250000000006
20
25.050000000000004
42
-0.41421356237309243
10
-75.056250000000006
20
26.050000000000004
10
-63.056250000000006
20
26.050000000000004
42
-0.4142135623730937
10
-62.056250000000013
20
25.050000000000004
0
LWPOLYLINE
5
134
100
AcDbEntity
8
0
100
AcDbPolyline
90
8
70
1
43
0.0
10
-73.962499999999977
20
-25.050000000000004
42
-0.41421356237309243
10
-74.962499999999977
20
-26.050000000000004
10
-86.962499999999991
20
-26.050000000000001
42
-0.41421356237310025
10
-87.962500000000006
20
-25.050000000000004
10
-87.962500000000006
20
-13.050000000000001
42
-0.4142135623730937
10
-86.962500000000006
20
-12.050000000000001
10
-74.962499999999977
20
-12.050000000000001
42
-0.4142135623730937
10
-73.962499999999977
20
-13.050000000000001
0
LWPOLYLINE
5
135
100
AcDbEntity
8
0
100
AcDbPolyline
90
8
70
1
43
0.0
10
49.862500000000011
20
-6.0000000000000053
42
-0.41421356237309537
10
48.862500000000011
20
-7.0000000000000053
10
36.862500000000011
20
-7.0000000000000089
42
-0.41421356237309309
10
35.862500000000011
20
-6.0000000000000053
10
35.862500000000011
20
6.0000000000000009
42
-0.4142135623730947
10
36.862500000000011
20
7.0000000000000009
10
48.862500000000011
20
7
42
-0.4142135623730957
10
49.862500000000011
20
6.0000000000000009
0
LWPOLYLINE
5
136
100
AcDbEntity
8
0
100
AcDbPolyline
90
8
70
1
43
0.0
10
-106.01250000000002
20
-26.050000000000001
42
-0.41421356237309503
10
-107.01250000000002
20
-25.050000000000004
10
-107.01250000000002
20
-13.050000000000001
42
-0.4142135623730937
10
-106.01250000000002
20
-12.050000000000001
10
-94.012500000000017
20
-12.050000000000004
42
-0.41421356237308982
10
-93.012500000000031
20
-13.050000000000001
10
-93.012500000000031
20
-25.050000000000004
42
-0.4142135623730937
10
-94.012500000000031
20
-26.050000000000004
0
LWPOLYLINE
5
137
100
AcDbEntity
8
0
100
AcDbPolyline
90
8
70
1
43
0.0
10
40.337500000000013
20
-25.050000000000004
10
40.337500000000006
20
-13.050000000000001
42
0.41421356237309764
10
39.337500000000006
20
-12.050000000000004
10
27.337500000000006
20
-12.050000000000001
42
0.41421356237309243
10
26.337500000000006
20
-13.050000000000001
10
26.337500000000006
20
-25.050000000000004
42
0.41421356237309115
10
27.337500000000006
20
-26.050000000000004
10
39.337500000000006
20
-26.050000000000004
42
0.41421356237309503
0
ENDSEC
0
SECTION
2
OBJECTS
0
DICTIONARY
5
C
100
AcDbDictionary
3
ACAD_GROUP
350
D
3
ACAD_MLINESTYLE
350
17
0
DICTIONARY
5
D
100
AcDbDictionary
0
DICTIONARY
5
1A
330
C
100
AcDbDictionary
0
DICTIONARY
5
17
100
AcDbDictionary
0
ENDSEC
0
EOF
